  0
SECTION
  2
HEADER
  9
$ACADVER
  1
AC1015
  9
$ACADMAINTVER
 70
     6
  9
$DWGCODEPAGE
  3
ANSI_1254
  9
$INSBASE
 10
0.0
 20
0.0
 30
0.0
  9
$EXTMIN
 10
0.0
 20
0.0
 30
0.0
  9
$EXTMAX
 10
279.4
 20
215.9
 30
0.0
  9
$LIMMIN
 10
0.0
 20
0.0
  9
$LIMMAX
 10
279.4
 20
215.9
  9
$ORTHOMODE
 70
     0
  9
$REGENMODE
 70
     1
  9
$FILLMODE
 70
     1
  9
$QTEXTMODE
 70
     0
  9
$MIRRTEXT
 70
     1
  9
$LTSCALE
 40
1.0
  9
$ATTMODE
 70
     1
  9
$TEXTSIZE
 40
3.5
  9
$TRACEWID
 40
1.0
  9
$TEXTSTYLE
  7
Standard
  9
$CLAYER
  8
0
  9
$CELTYPE
  6
ByLayer
  9
$CECOLOR
 62
   256
  9
$CELTSCALE
 40
1.0
  9
$DISPSILH
 70
     0
  9
$DIMSCALE
 40
1.0
  9
$DIMASZ
 40
3.5
  9
$DIMEXO
 40
1.0
  9
$DIMDLI
 40
3.75
  9
$DIMRND
 40
0.0
  9
$DIMDLE
 40
0.0
  9
$DIMEXE
 40
1.0
  9
$DIMTP
 40
0.0
  9
$DIMTM
 40
0.0
  9
$DIMTXT
 40
3.5
  9
$DIMCEN
 40
2.5
  9
$DIMTSZ
 40
0.0
  9
$DIMTOL
 70
     0
  9
$DIMLIM
 70
     0
  9
$DIMTIH
 70
     1
  9
$DIMTOH
 70
     1
  9
$DIMSE1
 70
     0
  9
$DIMSE2
 70
     0
  9
$DIMTAD
 70
     1
  9
$DIMZIN
 70
     0
  9
$DIMBLK
  1

  9
$DIMASO
 70
     1
  9
$DIMSHO
 70
     1
  9
$DIMPOST
  1

  9
$DIMAPOST
  1

  9
$DIMALT
 70
     0
  9
$DIMALTD
 70
     3
  9
$DIMALTF
 40
0.0393700787
  9
$DIMLFAC
 40
1.0
  9
$DIMTOFL
 70
     1
  9
$DIMTVP
 40
0.0
  9
$DIMTIX
 70
     0
  9
$DIMSOXD
 70
     0
  9
$DIMSAH
 70
     0
  9
$DIMBLK1
  1

  9
$DIMBLK2
  1

  9
$DIMSTYLE
  2
ISO-25
  9
$DIMCLRD
 70
     0
  9
$DIMCLRE
 70
     0
  9
$DIMCLRT
 70
     0
  9
$DIMTFAC
 40
1.0
  9
$DIMGAP
 40
1.524
  9
$DIMJUST
 70
     0
  9
$DIMSD1
 70
     0
  9
$DIMSD2
 70
     0
  9
$DIMTOLJ
 70
     0
  9
$DIMTZIN
 70
     0
  9
$DIMALTZ
 70
     0
  9
$DIMALTTZ
 70
     0
  9
$DIMUPT
 70
     0
  9
$DIMDEC
 70
     2
  9
$DIMTDEC
 70
     2
  9
$DIMALTU
 70
     2
  9
$DIMALTTD
 70
     3
  9
$DIMTXSTY
  7
Standard
  9
$DIMAUNIT
 70
     0
  9
$DIMADEC
 70
     2
  9
$DIMALTRND
 40
0.0
  9
$DIMAZIN
 70
     0
  9
$DIMDSEP
 70
    44
  9
$DIMATFIT
 70
     3
  9
$DIMFRAC
 70
     0
  9
$DIMLDRBLK
  1

  9
$DIMLUNIT
 70
     2
  9
$DIMLWD
 70
    -2
  9
$DIMLWE
 70
    -2
  9
$DIMTMOVE
 70
     0
  9
$LUNITS
 70
     2
  9
$LUPREC
 70
     2
  9
$SKETCHINC
 40
1.0
  9
$FILLETRAD
 40
10.0
  9
$AUNITS
 70
     0
  9
$AUPREC
 70
     2
  9
$MENU
  1
.
  9
$ELEVATION
 40
0.0
  9
$PELEVATION
 40
0.0
  9
$THICKNESS
 40
0.0
  9
$LIMCHECK
 70
     0
  9
$CHAMFERA
 40
0.0
  9
$CHAMFERB
 40
0.0
  9
$CHAMFERC
 40
0.0
  9
$CHAMFERD
 40
0.0
  9
$SKPOLY
 70
     0
  9
$TDCREATE
 40
2458985.668764676
  9
$TDUCREATE
 40
2458985.543764676
  9
$TDUPDATE
 40
2458985.668764988
  9
$TDUUPDATE
 40
2458985.543764988
  9
$TDINDWG
 40
0.0000000116
  9
$TDUSRTIMER
 40
0.0000000116
  9
$USRTIMER
 70
     1
  9
$ANGBASE
 50
0.0
  9
$ANGDIR
 70
     0
  9
$PDMODE
 70
     0
  9
$PDSIZE
 40
-1.0
  9
$PLINEWID
 40
0.0
  9
$SPLFRAME
 70
     0
  9
$SPLINETYPE
 70
     6
  9
$SPLINESEGS
 70
     8
  9
$HANDSEED
  5
D3
  9
$SURFTAB1
 70
     6
  9
$SURFTAB2
 70
     6
  9
$SURFTYPE
 70
     6
  9
$SURFU
 70
     6
  9
$SURFV
 70
     6
  9
$UCSBASE
  2

  9
$UCSNAME
  2

  9
$UCSORG
 10
0.0
 20
0.0
 30
0.0
  9
$UCSXDIR
 10
1.0
 20
0.0
 30
0.0
  9
$UCSYDIR
 10
0.0
 20
1.0
 30
0.0
  9
$UCSORTHOREF
  2

  9
$UCSORTHOVIEW
 70
     0
  9
$UCSORGTOP
 10
0.0
 20
0.0
 30
0.0
  9
$UCSORGBOTTOM
 10
0.0
 20
0.0
 30
0.0
  9
$UCSORGLEFT
 10
0.0
 20
0.0
 30
0.0
  9
$UCSORGRIGHT
 10
0.0
 20
0.0
 30
0.0
  9
$UCSORGFRONT
 10
0.0
 20
0.0
 30
0.0
  9
$UCSORGBACK
 10
0.0
 20
0.0
 30
0.0
  9
$PUCSBASE
  2

  9
$PUCSNAME
  2

  9
$PUCSORG
 10
0.0
 20
0.0
 30
0.0
  9
$PUCSXDIR
 10
1.0
 20
0.0
 30
0.0
  9
$PUCSYDIR
 10
0.0
 20
1.0
 30
0.0
  9
$PUCSORTHOREF
  2

  9
$PUCSORTHOVIEW
 70
     0
  9
$PUCSORGTOP
 10
0.0
 20
0.0
 30
0.0
  9
$PUCSORGBOTTOM
 10
0.0
 20
0.0
 30
0.0
  9
$PUCSORGLEFT
 10
0.0
 20
0.0
 30
0.0
  9
$PUCSORGRIGHT
 10
0.0
 20
0.0
 30
0.0
  9
$PUCSORGFRONT
 10
0.0
 20
0.0
 30
0.0
  9
$PUCSORGBACK
 10
0.0
 20
0.0
 30
0.0
  9
$USERI1
 70
     0
  9
$USERI2
 70
     0
  9
$USERI3
 70
     0
  9
$USERI4
 70
     0
  9
$USERI5
 70
     0
  9
$USERR1
 40
0.0
  9
$USERR2
 40
0.0
  9
$USERR3
 40
0.0
  9
$USERR4
 40
0.0
  9
$USERR5
 40
0.0
  9
$WORLDVIEW
 70
     1
  9
$SHADEDGE
 70
     3
  9
$SHADEDIF
 70
    70
  9
$TILEMODE
 70
     1
  9
$MAXACTVP
 70
    64
  9
$PINSBASE
 10
0.0
 20
0.0
 30
0.0
  9
$PLIMCHECK
 70
     0
  9
$PEXTMIN
 10
1.0000000000E+20
 20
1.0000000000E+20
 30
1.0000000000E+20
  9
$PEXTMAX
 10
-1.0000000000E+20
 20
-1.0000000000E+20
 30
-1.0000000000E+20
  9
$PLIMMIN
 10
0.0
 20
0.0
  9
$PLIMMAX
 10
420.0
 20
297.0
  9
$UNITMODE
 70
     0
  9
$VISRETAIN
 70
     1
  9
$PLINEGEN
 70
     0
  9
$PSLTSCALE
 70
     1
  9
$TREEDEPTH
 70
  3020
  9
$CMLSTYLE
  2
Standard
  9
$CMLJUST
 70
     0
  9
$CMLSCALE
 40
20.0
  9
$PROXYGRAPHICS
 70
     1
  9
$MEASUREMENT
 70
     1
  9
$CELWEIGHT
370
    -1
  9
$ENDCAPS
280
     0
  9
$JOINSTYLE
280
     0
  9
$LWDISPLAY
290
     1
  9
$INSUNITS
 70
     4
  9
$HYPERLINKBASE
  1

  9
$STYLESHEET
  1

  9
$XEDIT
290
     1
  9
$CEPSNTYPE
380
     0
  9
$PSTYLEMODE
290
     1
  9
$FINGERPRINTGUID
  2
{c701357f-3d13-4f2f-af25-579a7c7d5114}
  9
$VERSIONGUID
  2
{FAEB1C32-E019-11D5-929B-00C0DF256EC4}
  9
$EXTNAMES
290
     1
  9
$PSVPSCALE
 40
0.0
  9
$OLESTARTUP
290
     0
  0
ENDSEC
  0
SECTION
  2
CLASSES
  0
CLASS
  1
ACDBDICTIONARYWDFLT
  2
AcDbDictionaryWithDefault
  3
ObjectDBX Classes
 90
        0
280
     0
281
     0
  0
CLASS
  1
VISUALSTYLE
  2
AcDbVisualStyle
  3
ObjectDBX Classes
 90
     4095
280
     0
281
     0
  0
CLASS
  1
MATERIAL
  2
AcDbMaterial
  3
ObjectDBX Classes
 90
     1153
280
     0
281
     0
  0
CLASS
  1
SCALE
  2
AcDbScale
  3
ObjectDBX Classes
 90
     1153
280
     0
281
     0
  0
CLASS
  1
TABLESTYLE
  2
AcDbTableStyle
  3
ObjectDBX Classes
 90
     4095
280
     0
281
     0
  0
CLASS
  1
MLEADERSTYLE
  2
AcDbMLeaderStyle
  3
ACDB_MLEADERSTYLE_CLASS
 90
     4095
280
     0
281
     0
  0
CLASS
  1
SUN
  2
AcDbSun
  3
SCENEOE
 90
     1153
280
     0
281
     0
  0
CLASS
  1
ACDBPLACEHOLDER
  2
AcDbPlaceHolder
  3
ObjectDBX Classes
 90
        0
280
     0
281
     0
  0
CLASS
  1
LAYOUT
  2
AcDbLayout
  3
ObjectDBX Classes
 90
        0
280
     0
281
     0
  0
ENDSEC
  0
SECTION
  2
TABLES
  0
TABLE
  2
VPORT
  5
8
330
0
100
AcDbSymbolTable
 70
     1
  0
VPORT
  5
29
330
8
100
AcDbSymbolTableRecord
100
AcDbViewportTableRecord
  2
*Active
 70
     0
 10
0.0
 20
0.0
 11
1.0
 21
1.0
 12
139.7
 22
107.95
 13
0.0
 23
0.0
 14
10.0
 24
10.0
 15
10.0
 25
10.0
 16
0.0
 26
0.0
 36
1.0
 17
0.0
 27
0.0
 37
0.0
 40
215.9
 41
1.2941176471
 42
50.0
 43
0.0
 44
0.0
 50
0.0
 51
0.0
 71
     0
 72
  2000
 73
     1
 74
     3
 75
     0
 76
     0
 77
     0
 78
     0
281
     0
 65
     1
110
0.0
120
0.0
130
0.0
111
1.0
121
0.0
131
0.0
112
0.0
122
1.0
132
0.0
 79
     0
146
0.0
  0
ENDTAB
  0
TABLE
  2
LTYPE
  5
5
330
0
100
AcDbSymbolTable
 70
     6
  0
LTYPE
  5
14
330
5
100
AcDbSymbolTableRecord
100
AcDbLinetypeTableRecord
  2
ByBlock
 70
     0
  3

 72
    65
 73
     0
 40
0.0
  0
LTYPE
  5
15
330
5
100
AcDbSymbolTableRecord
100
AcDbLinetypeTableRecord
  2
ByLayer
 70
     0
  3

 72
    65
 73
     0
 40
0.0
  0
LTYPE
  5
16
330
5
100
AcDbSymbolTableRecord
100
AcDbLinetypeTableRecord
  2
Continuous
 70
     0
  3
Solid line
 72
    65
 73
     0
 40
0.0
  0
LTYPE
  5
6E
330
5
100
AcDbSymbolTableRecord
100
AcDbLinetypeTableRecord
  2
HIDDEN
 70
     0
  3
Hidden __ __ __ __ __ __ __ __ __ __ __ __ __ __
 72
    65
 73
     2
 40
1.905
 49
1.27
 74
     0
 49
-0.635
 74
     0
  0
LTYPE
  5
6F
330
5
100
AcDbSymbolTableRecord
100
AcDbLinetypeTableRecord
  2
PHANTOM
 70
     0
  3
Phantom ______  __  __  ______  __  __  ______
 72
    65
 73
     6
 40
12.7
 49
6.35
 74
     0
 49
-1.27
 74
     0
 49
1.27
 74
     0
 49
-1.27
 74
     0
 49
1.27
 74
     0
 49
-1.27
 74
     0
  0
LTYPE
  5
70
330
5
100
AcDbSymbolTableRecord
100
AcDbLinetypeTableRecord
  2
CENTER
 70
     0
  3
Center ____ _ ____ _ ____ _ ____ _ ____ _ ____
 72
    65
 73
     4
 40
10.16
 49
6.35
 74
     0
 49
-1.27
 74
     0
 49
1.27
 74
     0
 49
-1.27
 74
     0
  0
LTYPE
  5
71
330
5
100
AcDbSymbolTableRecord
100
AcDbLinetypeTableRecord
  2
CENTERX2
 70
     0
  3
Center (2x) ________  __  ________  __  _____
 72
    65
 73
     4
 40
20.32
 49
12.7
 74
     0
 49
-2.54
 74
     0
 49
2.54
 74
     0
 49
-2.54
 74
     0
  0
LTYPE
  5
72
330
5
100
AcDbSymbolTableRecord
100
AcDbLinetypeTableRecord
  2
DOT2
 70
     0
  3
Dot (.5x) ........................................
 72
    65
 73
     2
 40
0.635
 49
0.0
 74
     0
 49
-0.635
 74
     0
  0
ENDTAB
  0
TABLE
  2
LAYER
  5
2
330
0
100
AcDbSymbolTable
 70
    17
  0
LAYER
  5
10
330
2
100
AcDbSymbolTableRecord
100
AcDbLayerTableRecord
  2
0
 70
     0
 62
     7
  6
Continuous
370
    -3
390
F
  0
LAYER
  5
73
330
2
100
AcDbSymbolTableRecord
100
AcDbLayerTableRecord
  2
FORMAT
 70
     0
 62
     7
  6
Continuous
370
    -3
390
F
  0
LAYER
  5
74
330
2
100
AcDbSymbolTableRecord
100
AcDbLayerTableRecord
  2
YARDIMCI_GEOMETRI
 70
     0
 62
    -6
  6
Continuous
290
     0
370
    -3
390
F
  0
LAYER
  5
75
330
2
100
AcDbSymbolTableRecord
100
AcDbLayerTableRecord
  2
SAYFA_CERCEVESI
 70
     0
 62
     7
  6
Continuous
370
    25
390
F
  0
LAYER
  5
76
330
2
100
AcDbSymbolTableRecord
100
AcDbLayerTableRecord
  2
ANTET
 70
     0
 62
     7
  6
Continuous
370
    -3
390
F
  0
LAYER
  5
77
330
2
100
AcDbSymbolTableRecord
100
AcDbLayerTableRecord
  2
OLCU
 70
     0
 62
   150
  6
Continuous
370
    -3
390
F
  0
LAYER
  5
78
330
2
100
AcDbSymbolTableRecord
100
AcDbLayerTableRecord
  2
METIN
 70
     0
 62
    96
  6
Continuous
370
    -3
390
F
  0
LAYER
  5
79
330
2
100
AcDbSymbolTableRecord
100
AcDbLayerTableRecord
  2
BALON
 70
     0
 62
     5
  6
Continuous
370
    -3
390
F
  0
LAYER
  5
7A
330
2
100
AcDbSymbolTableRecord
100
AcDbLayerTableRecord
  2
VURGU
 70
     0
 62
     7
  6
Continuous
370
    -3
390
F
  0
LAYER
  5
7B
330
2
100
AcDbSymbolTableRecord
100
AcDbLayerTableRecord
  2
SILIK
 70
     0
 62
     7
  6
Continuous
370
    -3
390
F
  0
LAYER
  5
7C
330
2
100
AcDbSymbolTableRecord
100
AcDbLayerTableRecord
  2
MODEL
 70
     0
 62
     7
  6
Continuous
370
    -3
390
F
  0
LAYER
  5
7D
330
2
100
AcDbSymbolTableRecord
100
AcDbLayerTableRecord
  2
DETAYLANDıRMA
 70
     0
 62
   190
  6
Continuous
370
    -3
390
F
  0
LAYER
  5
7E
330
2
100
AcDbSymbolTableRecord
100
AcDbLayerTableRecord
  2
TOLERANS
 70
     0
 62
   230
  6
Continuous
370
    -3
390
F
  0
LAYER
  5
7F
330
2
100
AcDbSymbolTableRecord
100
AcDbLayerTableRecord
  2
MERKEZ_CIZGILERI
 70
     0
 62
    30
  6
Continuous
370
    -3
390
F
  0
LAYER
  5
80
330
2
100
AcDbSymbolTableRecord
100
AcDbLayerTableRecord
  2
KESIT-DETAY_CIZGILERI
 70
     0
 62
     7
  6
Continuous
370
    -3
390
F
  0
LAYER
  5
81
330
2
100
AcDbSymbolTableRecord
100
AcDbLayerTableRecord
  2
\U+041E\U+0421\U+0415\U+0412\U+042B\U+0415
 70
     0
 62
     7
  6
Continuous
370
    -3
390
F
  0
LAYER
  5
82
330
2
100
AcDbSymbolTableRecord
100
AcDbLayerTableRecord
  2
\U+0412\U+041E\U+0414\U+042F\U+041D\U+042B\U+0415_\U+0417\U+041D\U+0410\U+041A\U+0418
 70
     0
 62
    11
  6
Continuous
370
    -3
390
F
  0
ENDTAB
  0
TABLE
  2
STYLE
  5
3
330
0
100
AcDbSymbolTable
 70
     1
  0
STYLE
  5
11
330
3
100
AcDbSymbolTableRecord
100
AcDbTextStyleTableRecord
  2
Standard
 70
     0
 40
0.0
 41
1.0
 50
0.0
 71
     0
 42
3.5
  3
txt
  4

  0
ENDTAB
  0
TABLE
  2
VIEW
  5
6
330
0
100
AcDbSymbolTable
 70
     0
  0
ENDTAB
  0
TABLE
  2
UCS
  5
7
330
0
100
AcDbSymbolTable
 70
     0
  0
ENDTAB
  0
TABLE
  2
APPID
  5
9
330
0
100
AcDbSymbolTable
 70
     1
  0
APPID
  5
12
330
9
100
AcDbSymbolTableRecord
100
AcDbRegAppTableRecord
  2
ACAD
 70
     0
  0
ENDTAB
  0
TABLE
  2
DIMSTYLE
  5
A
330
0
100
AcDbSymbolTable
 70
     1
100
AcDbDimStyleTable
  0
DIMSTYLE
105
27
330
A
100
AcDbSymbolTableRecord
100
AcDbDimStyleTableRecord
  2
ISO-25
 70
     0
 41
2.5
 42
0.625
 43
3.75
 44
1.25
 73
     0
 74
     0
 77
     1
 78
     8
140
2.5
141
2.5
143
0.0393700787
147
0.625
171
     3
172
     1
178
     0
271
     2
272
     2
274
     3
278
    44
283
     0
284
     8
340
11
  0
ENDTAB
  0
TABLE
  2
BLOCK_RECORD
  5
1
330
0
100
AcDbSymbolTable
 70
     3
  0
BLOCK_RECORD
  5
1F
330
1
100
AcDbSymbolTableRecord
100
AcDbBlockTableRecord
  2
*Model_Space
340
22
  0
BLOCK_RECORD
  5
1B
330
1
100
AcDbSymbolTableRecord
100
AcDbBlockTableRecord
  2
*Paper_Space
340
1E
  0
BLOCK_RECORD
  5
23
330
1
100
AcDbSymbolTableRecord
100
AcDbBlockTableRecord
  2
*Paper_Space0
340
26
  0
BLOCK_RECORD
  5
94
330
1
100
AcDbSymbolTableRecord
100
AcDbBlockTableRecord
  2
SW_CENTERMARKSYMBOL_0
340
0
102
{BLKREFS
331
9F
102
}
  0
BLOCK_RECORD
  5
A5
330
1
100
AcDbSymbolTableRecord
100
AcDbBlockTableRecord
  2
SW_CENTERMARKSYMBOL_1
340
0
102
{BLKREFS
331
B0
102
}
  0
ENDTAB
  0
ENDSEC
  0
SECTION
  2
BLOCKS
  0
BLOCK
  5
20
330
1F
100
AcDbEntity
  8
0
100
AcDbBlockBegin
  2
*Model_Space
 70
     0
 10
0.0
 20
0.0
 30
0.0
  3
*Model_Space
  1

  0
ENDBLK
  5
21
330
1F
100
AcDbEntity
  8
0
100
AcDbBlockEnd
  0
BLOCK
  5
1C
330
1B
100
AcDbEntity
 67
     1
  8
0
100
AcDbBlockBegin
  2
*Paper_Space
 70
     0
 10
0.0
 20
0.0
 30
0.0
  3
*Paper_Space
  1

  0
ENDBLK
  5
1D
330
1B
100
AcDbEntity
 67
     1
  8
0
100
AcDbBlockEnd
  0
BLOCK
  5
24
330
23
100
AcDbEntity
  8
0
100
AcDbBlockBegin
  2
*Paper_Space0
 70
     0
 10
0.0
 20
0.0
 30
0.0
  3
*Paper_Space0
  1

  0
ENDBLK
  5
25
330
23
100
AcDbEntity
  8
0
100
AcDbBlockEnd
  0
BLOCK
  5
95
330
94
100
AcDbEntity
  8
0
100
AcDbBlockBegin
  2
SW_CENTERMARKSYMBOL_0
 70
     0
 10
0.0
 20
0.0
 30
0.0
  3
SW_CENTERMARKSYMBOL_0
  1

  0
LINE
  5
97
330
94
100
AcDbEntity
  8
FORMAT
 62
     0
100
AcDbLine
 10
0.0
 20
0.0
 30
0.0
 11
0.0
 21
2.5
 31
0.0
  0
LINE
  5
98
330
94
100
AcDbEntity
  8
FORMAT
 62
     0
100
AcDbLine
 10
0.0
 20
0.0
 30
0.0
 11
-2.5
 21
0.0
 31
0.0
  0
LINE
  5
99
330
94
100
AcDbEntity
  8
FORMAT
 62
     0
100
AcDbLine
 10
0.0
 20
0.0
 30
0.0
 11
0.0
 21
-2.5
 31
0.0
  0
LINE
  5
9A
330
94
100
AcDbEntity
  8
FORMAT
 62
     0
100
AcDbLine
 10
0.0
 20
0.0
 30
0.0
 11
2.5
 21
0.0
 31
0.0
  0
LINE
  5
9B
330
94
100
AcDbEntity
  8
FORMAT
 62
     0
100
AcDbLine
 10
0.0
 20
5.0
 30
0.0
 11
0.0
 21
34.0
 31
0.0
  0
LINE
  5
9C
330
94
100
AcDbEntity
  8
FORMAT
 62
     0
100
AcDbLine
 10
-5.0
 20
0.0
 30
0.0
 11
-34.0
 21
0.0
 31
0.0
  0
LINE
  5
9D
330
94
100
AcDbEntity
  8
FORMAT
 62
     0
100
AcDbLine
 10
0.0
 20
-5.0
 30
0.0
 11
0.0
 21
-34.0
 31
0.0
  0
LINE
  5
9E
330
94
100
AcDbEntity
  8
FORMAT
 62
     0
100
AcDbLine
 10
5.0
 20
0.0
 30
0.0
 11
34.0
 21
0.0
 31
0.0
  0
ENDBLK
  5
96
330
94
100
AcDbEntity
  8
0
100
AcDbBlockEnd
  0
BLOCK
  5
A6
330
A5
100
AcDbEntity
  8
0
100
AcDbBlockBegin
  2
SW_CENTERMARKSYMBOL_1
 70
     0
 10
0.0
 20
0.0
 30
0.0
  3
SW_CENTERMARKSYMBOL_1
  1

  0
LINE
  5
A8
330
A5
100
AcDbEntity
  8
FORMAT
 62
     0
100
AcDbLine
 10
0.0
 20
0.0
 30
0.0
 11
0.0
 21
2.5
 31
0.0
  0
LINE
  5
A9
330
A5
100
AcDbEntity
  8
FORMAT
 62
     0
100
AcDbLine
 10
0.0
 20
0.0
 30
0.0
 11
-2.5
 21
0.0
 31
0.0
  0
LINE
  5
AA
330
A5
100
AcDbEntity
  8
FORMAT
 62
     0
100
AcDbLine
 10
0.0
 20
0.0
 30
0.0
 11
0.0
 21
-2.5
 31
0.0
  0
LINE
  5
AB
330
A5
100
AcDbEntity
  8
FORMAT
 62
     0
100
AcDbLine
 10
0.0
 20
0.0
 30
0.0
 11
2.5
 21
0.0
 31
0.0
  0
LINE
  5
AC
330
A5
100
AcDbEntity
  8
FORMAT
 62
     0
100
AcDbLine
 10
0.0
 20
5.0
 30
0.0
 11
0.0
 21
34.0
 31
0.0
  0
LINE
  5
AD
330
A5
100
AcDbEntity
  8
FORMAT
 62
     0
100
AcDbLine
 10
-5.0
 20
0.0
 30
0.0
 11
-34.0
 21
0.0
 31
0.0
  0
LINE
  5
AE
330
A5
100
AcDbEntity
  8
FORMAT
 62
     0
100
AcDbLine
 10
0.0
 20
-5.0
 30
0.0
 11
0.0
 21
-38.6405758749
 31
0.0
  0
LINE
  5
AF
330
A5
100
AcDbEntity
  8
FORMAT
 62
     0
100
AcDbLine
 10
5.0
 20
0.0
 30
0.0
 11
34.0
 21
0.0
 31
0.0
  0
ENDBLK
  5
A7
330
A5
100
AcDbEntity
  8
0
100
AcDbBlockEnd
  0
ENDSEC
  0
SECTION
  2
ENTITIES
  0
LINE
  5
83
330
1F
100
AcDbEntity
  8
0
  6
Continuous
 62
     7
370
    25
100
AcDbLine
 10
104.3747993705
 20
196.0272689769
 30
0.0
 11
104.3747993705
 21
80.0617536018
 31
0.0
  0
LINE
  5
84
330
1F
100
AcDbEntity
  8
0
  6
Continuous
 62
     7
370
    25
100
AcDbLine
 10
167.3748003838
 20
80.0617536018
 30
0.0
 11
167.3748003838
 21
196.0272689769
 31
0.0
  0
LINE
  5
85
330
1F
100
AcDbEntity
  8
0
  6
Continuous
 62
     7
370
    25
100
AcDbLine
 10
167.3748003838
 20
196.0272689769
 30
0.0
 11
167.3748003838
 21
244.0617581318
 31
0.0
  0
LINE
  5
86
330
1F
100
AcDbEntity
  8
0
  6
Continuous
 62
     7
370
    25
100
AcDbLine
 10
167.3748003838
 20
-9.9382499745
 30
0.0
 11
167.3748003838
 21
80.0617536018
 31
0.0
  0
LINE
  5
87
330
1F
100
AcDbEntity
  8
0
  6
Continuous
 62
     7
370
    25
100
AcDbLine
 10
104.3747993705
 20
80.0617536018
 30
0.0
 11
104.3747993705
 21
-9.9382499745
 31
0.0
  0
LINE
  5
88
330
1F
100
AcDbEntity
  8
0
  6
Continuous
 62
     7
370
    25
100
AcDbLine
 10
104.3747993705
 20
244.0617581318
 30
0.0
 11
104.3747993705
 21
196.0272689769
 31
0.0
  0
LWPOLYLINE
  5
89
330
1F
100
AcDbEntity
  8
0
  6
Continuous
 62
     7
370
    25
100
AcDbPolyline
 90
       72
 70
   128
 43
0.0
 10
135.8747998771
 20
215.6141152094
 10
133.4266708751
 20
215.5374785373
 10
130.9977019725
 20
215.3081347654
 10
128.6069028598
 20
214.9278869341
 10
126.2729852048
 20
214.3997301767
 10
124.0142141056
 20
213.7277772138
 10
121.8482688588
 20
212.9172881553
 10
119.7920995352
 20
211.9746257971
 10
117.8617993889
 20
210.9071513126
 10
116.0724754033
 20
209.7232093523
 10
114.4381328074
 20
208.4320833395
 10
112.97155866
 20
207.0438762615
 10
111.6842361686
 20
205.5694510648
 10
110.5862347928
 20
204.0203412483
 10
109.6861525026
 20
202.408676357
 10
108.9910319594
 20
200.7470627735
 10
108.5063120869
 20
199.0485092113
 10
108.235788956
 20
197.3263224075
 10
108.1815785316
 20
195.5939581106
 10
108.3441054967
 20
193.8649912784
 10
108.7220958022
 20
192.1529372642
 10
109.31259343
 20
190.4712220142
 10
110.1109771577
 20
188.8329734514
 10
111.1109978107
 20
187.2510363767
 10
112.3048285541
 20
185.7377936552
 10
113.6831244973
 20
184.3050768087
 10
115.2351027874
 20
182.9640915106
 10
116.9486133901
 20
181.7253430793
 10
118.810247123
 20
180.598532171
 10
120.8054343757
 20
179.592480273
 10
122.9185605941
 20
178.7150402973
 10
125.1330864203
 20
177.9730965803
 10
127.4316799415
 20
177.3724605749
 10
129.7963531275
 20
176.9178112457
 10
132.2085980379
 20
176.6127248714
 10
134.6495361819
 20
176.4595707367
 10
137.1000635724
 20
176.4595707367
 10
139.5410017164
 20
176.6127248714
 10
141.9532466267
 20
176.9178112457
 10
144.3179198128
 20
177.3724605749
 10
146.616513334
 20
177.9730965803
 10
148.8310391602
 20
178.7150402973
 10
150.9441653785
 20
179.592480273
 10
152.9393526313
 20
180.598532171
 10
154.8009863642
 20
181.7253430793
 10
156.5144969669
 20
182.9640915106
 10
158.066475257
 20
184.3050768087
 10
159.4447712002
 20
185.7377936552
 10
160.6386019436
 20
187.2510363767
 10
161.6386225966
 20
188.8329734514
 10
162.4370063243
 20
190.4712220142
 10
163.0275039521
 20
192.1529372642
 10
163.4054942575
 20
193.8649912784
 10
163.5680212227
 20
195.5939581106
 10
163.5138107983
 20
197.3263224075
 10
163.2432876674
 20
199.0485092113
 10
162.7585677949
 20
200.7470627735
 10
162.0634472517
 20
202.408676357
 10
161.1633649615
 20
204.0203412483
 10
160.0653635857
 20
205.5694510648
 10
158.7780410943
 20
207.0438762615
 10
157.3114669469
 20
208.4320833395
 10
155.677124351
 20
209.7232093523
 10
153.8878003654
 20
210.9071513126
 10
151.9575002191
 20
211.9746257971
 10
149.9013308955
 20
212.9172881553
 10
147.7353856486
 20
213.7277772138
 10
145.4766145495
 20
214.3997301767
 10
143.1426968944
 20
214.9278869341
 10
140.7518977818
 20
215.3081347654
 10
138.3229288791
 20
215.5374785373
 10
135.8747998771
 20
215.6141152094
  0
LWPOLYLINE
  5
8A
330
1F
100
AcDbEntity
  8
0
  6
Continuous
 62
     7
370
    25
100
AcDbPolyline
 90
       77
 70
   128
 43
0.0
 10
135.8747998771
 20
218.3011223982
 10
133.2735505008
 20
218.2250519703
 10
130.6900702936
 20
217.9973324249
 10
128.1420071197
 20
217.6195581863
 10
125.6467666996
 20
217.0942624519
 10
123.221394099
 20
216.4250662039
 10
120.8824566153
 20
215.6165440986
 10
118.6459320185
 20
214.6741946647
 10
116.5270986554
 20
213.604470105
 10
114.5404311416
 20
212.4146719883
 10
112.6994969842
 20
211.1129363487
 10
111.016874626
 20
209.7081591795
 10
109.5040565876
 20
208.2099070261
 10
108.1713768241
 20
206.6284467886
 10
107.0279399452
 20
204.9745669077
 10
106.0815560219
 20
203.2595773647
 10
105.3386921582
 20
201.4951755712
 10
104.8044184742
 20
199.6934165666
 10
104.4823894796
 20
197.8666236112
 10
104.3747993705
 20
196.0272689769
 10
104.4823894796
 20
194.1878994415
 10
104.8044184742
 20
192.3611064861
 10
105.3386921582
 20
190.5593474815
 10
106.0815560219
 20
188.794945688
 10
107.0279399452
 20
187.0799561451
 10
108.1713768241
 20
185.4260762642
 10
109.5040565876
 20
183.8446160267
 10
111.016874626
 20
182.3463787744
 10
112.6994969842
 20
180.941586704
 10
114.5404311416
 20
179.6398510645
 10
116.5270986554
 20
178.4500529478
 10
118.6459320185
 20
177.380328388
 10
120.8824566153
 20
176.4379789541
 10
123.221394099
 20
175.6294568489
 10
125.6467666996
 20
174.9602606008
 10
128.1420071197
 20
174.4349797676
 10
130.6900702936
 20
174.0571906278
 10
133.2735505008
 20
173.8294710825
 10
135.8747998771
 20
173.7534006546
 10
138.4760492535
 20
173.8294710825
 10
141.0595294607
 20
174.0571906278
 10
143.6075926346
 20
174.4349797676
 10
146.1028330547
 20
174.9602606008
 10
148.5282056553
 20
175.6294568489
 10
150.867143139
 20
176.4379789541
 10
153.1036677358
 20
177.380328388
 10
155.2225010988
 20
178.4500529478
 10
157.2091686127
 20
179.6398510645
 10
159.0501027701
 20
180.941586704
 10
160.7327251283
 20
182.3463787744
 10
162.2455431667
 20
183.8446160267
 10
163.5782229302
 20
185.4260762642
 10
164.7216598091
 20
187.0799561451
 10
165.6680437324
 20
188.794945688
 10
166.4109075961
 20
190.5593474815
 10
166.9451812801
 20
192.3611064861
 10
167.2672102747
 20
194.1878994415
 10
167.3748003838
 20
196.0272689769
 10
167.2672102747
 20
197.8666236112
 10
166.9451812801
 20
199.6934165666
 10
166.4109075961
 20
201.4951755712
 10
165.6680437324
 20
203.2595773647
 10
164.7216598091
 20
204.9745669077
 10
163.5782229302
 20
206.6284467886
 10
162.2455431667
 20
208.2099070261
 10
160.7327251283
 20
209.7081591795
 10
159.0501027701
 20
211.1129363487
 10
157.2091686127
 20
212.4146719883
 10
155.2225010988
 20
213.604470105
 10
153.1036677358
 20
214.6741946647
 10
150.867143139
 20
215.6165440986
 10
148.5282056553
 20
216.4250662039
 10
146.1028330547
 20
217.0942624519
 10
143.6075926346
 20
217.6195581863
 10
141.0595294607
 20
217.9973324249
 10
138.4760492535
 20
218.2250519703
 10
135.8747998771
 20
218.3011223982
  0
ELLIPSE
  5
8B
330
1F
100
AcDbEntity
  8
0
  6
Continuous
 62
     7
370
    25
100
AcDbEllipse
 10
135.8747998771
 20
80.0617500255
 30
0.0
 11
31.49999999999989
 21
0.0
 31
0.0
210
0.0
220
0.0
230
1.0
 40
0.4142135624
 41
3.141592653589828
 42
6.283185307179586
  0
LINE
  5
8C
330
1F
100
AcDbEntity
  8
0
  6
Continuous
 62
     7
370
    25
100
AcDbLine
 10
104.3747993705
 20
-9.9382499745
 30
0.0
 11
167.3748003838
 21
-9.9382499745
 31
0.0
  0
LINE
  5
8D
330
1F
100
AcDbEntity
  8
0
  6
Continuous
 62
     7
370
    25
100
AcDbLine
 10
104.3747993705
 20
244.0617581318
 30
0.0
 11
167.3748003838
 21
244.0617581318
 31
0.0
  0
LINE
  5
8E
330
1F
100
AcDbEntity
  8
0
  6
Continuous
 62
     7
370
    25
100
AcDbLine
 10
167.3748003838
 20
353.5657487138
 30
0.0
 11
167.3748003838
 21
469.531264089
 31
0.0
  0
LINE
  5
8F
330
1F
100
AcDbEntity
  8
0
  6
Continuous
 62
     7
370
    25
100
AcDbLine
 10
104.3747993705
 20
469.531264089
 30
0.0
 11
104.3747993705
 21
353.5657487138
 31
0.0
  0
CIRCLE
  5
90
330
1F
100
AcDbEntity
  8
0
  6
Continuous
 62
     7
370
    25
100
AcDbCircle
 10
135.8747998771
 20
469.531264089
 30
0.0
 40
27.69999999999999
  0
CIRCLE
  5
91
330
1F
100
AcDbEntity
  8
0
  6
Continuous
 62
     7
370
    25
100
AcDbCircle
 10
135.8747998771
 20
469.531264089
 30
0.0
 40
31.49999999999999
  0
LWPOLYLINE
  5
92
330
1F
100
AcDbEntity
  8
0
  6
Continuous
 62
     7
370
    25
100
AcDbPolyline
 90
       77
 70
   128
 43
0.0
 10
135.8747998771
 20
375.8396170362
 10
133.2735505008
 20
375.7635391577
 10
130.6900702936
 20
375.5358270629
 10
128.1420071197
 20
375.1580379232
 10
125.6467666996
 20
374.6327570899
 10
123.221394099
 20
373.9635608419
 10
120.8824566153
 20
373.1550312861
 10
118.6459320185
 20
372.2126818522
 10
116.5270986554
 20
371.1429572924
 10
114.5404311416
 20
369.9531666263
 10
112.6994969842
 20
368.6514309867
 10
111.016874626
 20
367.2466389163
 10
109.5040565876
 20
365.7484016641
 10
108.1713768241
 20
364.1669414266
 10
107.0279399452
 20
362.5130615457
 10
106.0815560219
 20
360.7980645522
 10
105.3386921582
 20
359.0336627587
 10
104.8044184742
 20
357.2319112047
 10
104.4823894796
 20
355.4051107987
 10
104.3747993705
 20
353.5657487138
 10
104.4823894796
 20
351.7263940795
 10
104.8044184742
 20
349.8995936736
 10
105.3386921582
 20
348.0978421195
 10
106.0815560219
 20
346.3334403261
 10
107.0279399452
 20
344.6184433325
 10
108.1713768241
 20
342.9645709022
 10
109.5040565876
 20
341.3831106647
 10
111.016874626
 20
339.8848585113
 10
112.6994969842
 20
338.4800813421
 10
114.5404311416
 20
337.1783308013
 10
116.5270986554
 20
335.9885475858
 10
118.6459320185
 20
334.918823026
 10
120.8824566153
 20
333.9764735921
 10
123.221394099
 20
333.1679365857
 10
125.6467666996
 20
332.4987403377
 10
128.1420071197
 20
331.9734595045
 10
130.6900702936
 20
331.5956703647
 10
133.2735505008
 20
331.3679657205
 10
135.8747998771
 20
331.2918952926
 10
138.4760492535
 20
331.3679657205
 10
141.0595294607
 20
331.5956703647
 10
143.6075926346
 20
331.9734595045
 10
146.1028330547
 20
332.4987403377
 10
148.5282056553
 20
333.1679365857
 10
150.867143139
 20
333.9764735921
 10
153.1036677358
 20
334.918823026
 10
155.2225010988
 20
335.9885475858
 10
157.2091686127
 20
337.1783308013
 10
159.0501027701
 20
338.4800813421
 10
160.7327251283
 20
339.8848585113
 10
162.2455431667
 20
341.3831106647
 10
163.5782229302
 20
342.9645709022
 10
164.7216598091
 20
344.6184433325
 10
165.6680437324
 20
346.3334403261
 10
166.4109075961
 20
348.0978421195
 10
166.9451812801
 20
349.8995936736
 10
167.2672102747
 20
351.7263940795
 10
167.3748003838
 20
353.5657487138
 10
167.2672102747
 20
355.4051107987
 10
166.9451812801
 20
357.2319112047
 10
166.4109075961
 20
359.0336627587
 10
165.6680437324
 20
360.7980645522
 10
164.7216598091
 20
362.5130615457
 10
163.5782229302
 20
364.1669414266
 10
162.2455431667
 20
365.7484016641
 10
160.7327251283
 20
367.2466389163
 10
159.0501027701
 20
368.6514309867
 10
157.2091686127
 20
369.9531666263
 10
155.2225010988
 20
371.1429572924
 10
153.1036677358
 20
372.2126818522
 10
150.867143139
 20
373.1550312861
 10
148.5282056553
 20
373.9635608419
 10
146.1028330547
 20
374.6327570899
 10
143.6075926346
 20
375.1580379232
 10
141.0595294607
 20
375.5358270629
 10
138.4760492535
 20
375.7635391577
 10
135.8747998771
 20
375.8396170362
  0
LWPOLYLINE
  5
93
330
1F
100
AcDbEntity
  8
0
  6
Continuous
 62
     7
370
    25
100
AcDbPolyline
 90
       72
 70
   128
 43
0.0
 10
135.8747998771
 20
373.1526098474
 10
133.4266708751
 20
373.0759657248
 10
130.9977019725
 20
372.8466219529
 10
128.6069028598
 20
372.4663815721
 10
126.2729852048
 20
371.9382173642
 10
124.0142141056
 20
371.2662644013
 10
121.8482688588
 20
370.4557827934
 10
119.7920995352
 20
369.5131129845
 10
117.8617993889
 20
368.4456385001
 10
116.0724754033
 20
367.2616965397
 10
114.4381328074
 20
365.9705779775
 10
112.97155866
 20
364.5823634489
 10
111.6842361686
 20
363.1079382523
 10
110.5862347928
 20
361.5588284357
 10
109.6861525026
 20
359.9471635445
 10
108.9910319594
 20
358.2855499609
 10
108.5063120869
 20
356.5870038494
 10
108.235788956
 20
354.864809595
 10
108.1815785316
 20
353.1324527486
 10
108.3441054967
 20
351.4034784659
 10
108.7220958022
 20
349.6914319023
 10
109.31259343
 20
348.0097092017
 10
110.1109771577
 20
346.3714680894
 10
111.1109978107
 20
344.7895310148
 10
112.3048285541
 20
343.2762882932
 10
113.6831244973
 20
341.8435565456
 10
115.2351027874
 20
340.5025861486
 10
116.9486133901
 20
339.2638377174
 10
118.810247123
 20
338.1370268091
 10
120.8054343757
 20
337.1309749111
 10
122.9185605941
 20
336.2535349353
 10
125.1330864203
 20
335.5115912183
 10
127.4316799415
 20
334.9109403118
 10
129.7963531275
 20
334.4562909826
 10
132.2085980379
 20
334.1512046083
 10
134.6495361819
 20
333.9980653747
 10
137.1000635724
 20
333.9980653747
 10
139.5410017164
 20
334.1512046083
 10
141.9532466267
 20
334.4562909826
 10
144.3179198128
 20
334.9109403118
 10
146.616513334
 20
335.5115912183
 10
148.8310391602
 20
336.2535349353
 10
150.9441653785
 20
337.1309749111
 10
152.9393526313
 20
338.1370268091
 10
154.8009863642
 20
339.2638377174
 10
156.5144969669
 20
340.5025861486
 10
158.066475257
 20
341.8435565456
 10
159.4447712002
 20
343.2762882932
 10
160.6386019436
 20
344.7895310148
 10
161.6386225966
 20
346.3714680894
 10
162.4370063243
 20
348.0097092017
 10
163.0275039521
 20
349.6914319023
 10
163.4054942575
 20
351.4034784659
 10
163.5680212227
 20
353.1324527486
 10
163.5138107983
 20
354.864809595
 10
163.2432876674
 20
356.5870038494
 10
162.7585677949
 20
358.2855499609
 10
162.0634472517
 20
359.9471635445
 10
161.1633649615
 20
361.5588284357
 10
160.0653635857
 20
363.1079382523
 10
158.7780410943
 20
364.5823634489
 10
157.3114669469
 20
365.9705779775
 10
155.677124351
 20
367.2616965397
 10
153.8878003654
 20
368.4456385001
 10
151.9575002191
 20
369.5131129845
 10
149.9013308955
 20
370.4557827934
 10
147.7353856486
 20
371.2662644013
 10
145.4766145495
 20
371.9382173642
 10
143.1426968944
 20
372.4663815721
 10
140.7518977818
 20
372.8466219529
 10
138.3229288791
 20
373.0759657248
 10
135.8747998771
 20
373.1526098474
  0
INSERT
  5
9F
330
1F
100
AcDbEntity
  8
FORMAT
100
AcDbBlockReference
  2
SW_CENTERMARKSYMBOL_0
 10
135.8747998771
 20
469.531264089
 30
0.0
  0
LINE
  5
A0
330
1F
100
AcDbEntity
  8
0
  6
Continuous
 62
     7
370
    25
100
AcDbLine
 10
104.3747993705
 20
-135.7001775916
 30
0.0
 11
104.3747993705
 21
-251.6656929667
 31
0.0
  0
LINE
  5
A1
330
1F
100
AcDbEntity
  8
0
  6
Continuous
 62
     7
370
    25
100
AcDbLine
 10
167.3748003838
 20
-251.6656929667
 30
0.0
 11
167.3748003838
 21
-135.7001775916
 31
0.0
  0
CIRCLE
  5
A2
330
1F
100
AcDbEntity
  8
0
  6
Continuous
 62
     7
370
    25
100
AcDbCircle
 10
135.8747998771
 20
-251.6656929667
 30
0.0
 40
27.69999999999999
  0
CIRCLE
  5
A3
330
1F
100
AcDbEntity
  8
0
  6
Continuous
 62
     7
370
    25
100
AcDbCircle
 10
135.8747998771
 20
-251.6656929667
 30
0.0
 40
31.49999999999999
  0
LWPOLYLINE
  5
A4
330
1F
100
AcDbEntity
  8
0
  6
Continuous
 62
     7
370
    25
100
AcDbPolyline
 90
       39
 70
   128
 43
0.0
 10
104.3747993705
 20
-135.7001775916
 10
104.4823894796
 20
-133.8608229573
 10
104.8044184742
 20
-132.0340225513
 10
105.3386921582
 20
-130.2322709973
 10
106.0815560219
 20
-128.4678692038
 10
107.0279399452
 20
-126.7528722103
 10
108.1713768241
 20
-125.09899978
 10
109.5040565876
 20
-123.5175395425
 10
111.016874626
 20
-122.0192873891
 10
112.6994969842
 20
-120.6145102198
 10
114.5404311416
 20
-119.3127596791
 10
116.5270986554
 20
-118.1229764636
 10
118.6459320185
 20
-117.0532519038
 10
120.8824566153
 20
-116.1109024699
 10
123.221394099
 20
-115.3023654635
 10
125.6467666996
 20
-114.6331692155
 10
128.1420071197
 20
-114.1078883822
 10
130.6900702936
 20
-113.7300992425
 10
133.2735505008
 20
-113.5023945983
 10
135.8747998771
 20
-113.4263241704
 10
138.4760492535
 20
-113.5023945983
 10
141.0595294607
 20
-113.7300992425
 10
143.6075926346
 20
-114.1078883822
 10
146.1028330547
 20
-114.6331692155
 10
148.5282056553
 20
-115.3023654635
 10
150.867143139
 20
-116.1109024699
 10
153.1036677358
 20
-117.0532519038
 10
155.2225010988
 20
-118.1229764636
 10
157.2091686127
 20
-119.3127596791
 10
159.0501027701
 20
-120.6145102198
 10
160.7327251283
 20
-122.0192873891
 10
162.2455431667
 20
-123.5175395425
 10
163.5782229302
 20
-125.09899978
 10
164.7216598091
 20
-126.7528722103
 10
165.6680437324
 20
-128.4678692038
 10
166.4109075961
 20
-130.2322709973
 10
166.9451812801
 20
-132.0340225513
 10
167.2672102747
 20
-133.8608229573
 10
167.3748003838
 20
-135.7001775916
  0
INSERT
  5
B0
330
1F
100
AcDbEntity
  8
FORMAT
100
AcDbBlockReference
  2
SW_CENTERMARKSYMBOL_1
 10
135.8747998771
 20
-251.6656929667
 30
0.0
  0
LINE
  5
B1
330
1F
100
AcDbEntity
  8
0
  6
Continuous
 62
     7
370
    25
100
AcDbLine
 10
400.9933339055
 20
156.1094721267
 30
0.0
 11
400.9933339055
 21
244.0617581318
 31
0.0
  0
LINE
  5
B2
330
1F
100
AcDbEntity
  8
0
  6
Continuous
 62
     7
370
    25
100
AcDbLine
 10
400.9933339055
 20
-9.9382499745
 30
0.0
 11
400.9933339055
 21
67.014021189
 31
0.0
  0
LINE
  5
B3
330
1F
100
AcDbEntity
  8
0
  6
Continuous
 62
     7
370
    25
100
AcDbLine
 10
337.9933328922
 20
244.0617581318
 30
0.0
 11
337.9933328922
 21
-9.9382499745
 31
0.0
  0
LINE
  5
B4
330
1F
100
AcDbEntity
  8
0
  6
Continuous
 62
     7
370
    25
100
AcDbLine
 10
463.1849804516
 20
218.3011223982
 30
0.0
 11
400.9933339055
 21
156.1094721267
 31
0.0
  0
LINE
  5
B5
330
1F
100
AcDbEntity
  8
0
  6
Continuous
 62
     7
370
    25
100
AcDbLine
 10
400.9933339055
 20
67.014021189
 30
0.0
 11
507.7327021952
 21
173.7534006546
 31
0.0
  0
LINE
  5
B6
330
1F
100
AcDbEntity
  8
0
  6
Continuous
 62
     7
370
    25
100
AcDbLine
 10
369.4933333989
 20
-9.9382499745
 30
0.0
 11
400.9933339055
 21
-9.9382499745
 31
0.0
  0
LINE
  5
B7
330
1F
100
AcDbEntity
  8
0
  6
Continuous
 62
     7
370
    25
100
AcDbLine
 10
337.9933328922
 20
-9.9382499745
 30
0.0
 11
369.4933333989
 21
-9.9382499745
 31
0.0
  0
LINE
  5
B8
330
1F
100
AcDbEntity
  8
0
  6
Continuous
 62
     7
370
    25
100
AcDbLine
 10
369.4933333989
 20
244.0617581318
 30
0.0
 11
400.9933339055
 21
244.0617581318
 31
0.0
  0
LINE
  5
B9
330
1F
100
AcDbEntity
  8
0
  6
Continuous
 62
     7
370
    25
100
AcDbLine
 10
337.9933328922
 20
244.0617581318
 30
0.0
 11
369.4933333989
 21
244.0617581318
 31
0.0
  0
LWPOLYLINE
  5
BA
330
1F
100
AcDbEntity
  8
0
  6
Continuous
 62
     7
370
    25
100
AcDbPolyline
 90
       32
 70
   128
 43
0.0
 10
369.4933333989
 20
80.0617536018
 10
371.114914198
 20
83.9765941212
 10
372.7321948479
 20
87.8810559819
 10
374.3408864918
 20
91.7647754262
 10
375.9367235559
 20
95.6174706528
 10
377.5154741104
 20
99.4289120147
 10
379.072950929
 20
103.188989074
 10
380.6050240617
 20
106.887747855
 10
382.1076310794
 20
110.5153610418
 10
383.5767877843
 20
114.0622173855
 10
385.0085975225
 20
117.5189068029
 10
386.3992632921
 20
120.8762725303
 10
387.7450989182
 20
124.125411124
 10
389.0425318475
 20
127.2576948116
 10
390.2881254996
 20
130.2648236463
 10
391.4785736795
 20
133.1388106058
 10
392.6107229288
 20
135.8720709989
 10
393.6815669383
 20
138.4573181579
 10
394.6882688995
 20
140.8877124498
 10
395.6281596418
 20
143.1568016718
 10
396.4987450834
 20
145.2585806558
 10
397.2977155443
 20
147.1874614666
 10
398.0229550596
 20
148.9383479068
 10
398.6725376542
 20
150.5065759132
 10
399.2447441067
 20
151.8880029628
 10
399.7380544986
 20
153.0789633701
 10
400.151161253
 20
154.0762980888
 10
400.4829691346
 20
154.8773547123
 10
400.7325971122
 20
155.4800023744
 10
400.8993858095
 20
155.8826615522
 10
400.9828919168
 20
156.084259362
 10
400.9933339055
 20
156.1094721267
  0
LWPOLYLINE
  5
BB
330
1F
100
AcDbEntity
  8
0
  6
Continuous
 62
     7
370
    25
100
AcDbPolyline
 90
       21
 70
   128
 43
0.0
 10
400.9933339055
 20
67.014021189
 10
400.9677858646
 20
67.0246010134
 10
400.763662308
 20
67.1091576526
 10
400.3567395355
 20
67.2777121375
 10
399.7496531899
 20
67.5291692326
 10
398.9463446285
 20
67.8619121621
 10
397.952021807
 20
68.2737728069
 10
396.7731332029
 20
68.7620838592
 10
395.4173249747
 20
69.3236788223
 10
393.8933888073
 20
69.9549143622
 10
392.2112097587
 20
70.6517001102
 10
390.3816973414
 20
71.4095061133
 10
388.4167147423
 20
72.2234298895
 10
386.3290061797
 20
73.088188977
 10
384.1321130838
 20
73.9981656382
 10
381.8402818959
 20
74.9474739144
 10
379.468375593
 20
75.9299521754
 10
377.0317768301
 20
76.9392227242
 10
374.5462887543
 20
77.9687439511
 10
372.0280302312
 20
79.0118475864
 10
369.4933333989
 20
80.0617536018
  0
LWPOLYLINE
  5
BC
330
1F
100
AcDbEntity
  8
0
  6
Continuous
 62
     7
370
    25
100
AcDbPolyline
 90
       39
 70
   128
 43
0.0
 10
463.1849804516
 20
218.3011223982
 10
463.2610583301
 20
218.2250519703
 10
463.4887704249
 20
217.9973324249
 10
463.8665595646
 20
217.6195581863
 10
464.3918403979
 20
217.0942624519
 10
465.0610366459
 20
216.4250662039
 10
465.8695662017
 20
215.6165440986
 10
466.8119156356
 20
214.6741946647
 10
467.8816401954
 20
213.604470105
 10
469.0714308615
 20
212.4146719883
 10
470.3731665011
 20
211.1129363487
 10
471.7779585715
 20
209.7081591795
 10
473.2761958237
 20
208.2099070261
 10
474.8576560612
 20
206.6284467886
 10
476.5115359421
 20
204.9745669077
 10
478.2265329357
 20
203.2595773647
 10
479.9909347291
 20
201.4951755712
 10
481.7926862831
 20
199.6934165666
 10
483.6194866891
 20
197.8666236112
 10
485.458848774
 20
196.0272689769
 10
487.2982034083
 20
194.1878994415
 10
489.1250038143
 20
192.3611064861
 10
490.9267553683
 20
190.5593474815
 10
492.6911571617
 20
188.794945688
 10
494.4061541553
 20
187.0799561451
 10
496.0600265856
 20
185.4260762642
 10
497.6414868231
 20
183.8446160267
 10
499.1397389765
 20
182.3463787744
 10
500.5445161457
 20
180.941586704
 10
501.8462666865
 20
179.6398510645
 10
503.036049902
 20
178.4500529478
 10
504.1057744618
 20
177.380328388
 10
505.0481238957
 20
176.4379789541
 10
505.8566609021
 20
175.6294568489
 10
506.5258571501
 20
174.9602606008
 10
507.0511379834
 20
174.4349797676
 10
507.4289271231
 20
174.0571906278
 10
507.6566317673
 20
173.8294710825
 10
507.7327021952
 20
173.7534006546
  0
LINE
  5
BD
330
1F
100
AcDbEntity
  8
0
  6
Continuous
 62
     7
370
    25
100
AcDbLine
 10
-64.2731974492
 20
-9.9382499745
 30
0.0
 11
-64.2731974492
 21
244.0617581318
 31
0.0
  0
LINE
  5
BE
330
1F
100
AcDbEntity
  8
0
  6
Continuous
 62
     7
370
    25
100
AcDbLine
 10
-127.2731984624
 20
67.014021189
 30
0.0
 11
-127.2731984624
 21
-9.9382499745
 31
0.0
  0
LINE
  5
BF
330
1F
100
AcDbEntity
  8
0
  6
Continuous
 62
     7
370
    25
100
AcDbLine
 10
-127.2731984624
 20
244.0617581318
 30
0.0
 11
-127.2731984624
 21
156.1094721267
 31
0.0
  0
LINE
  5
C0
330
1F
100
AcDbEntity
  8
0
  6
Continuous
 62
     7
370
    25
100
AcDbLine
 10
-234.0125667522
 20
173.7534006546
 30
0.0
 11
-127.2731984624
 21
67.014021189
 31
0.0
  0
LINE
  5
C1
330
1F
100
AcDbEntity
  8
0
  6
Continuous
 62
     7
370
    25
100
AcDbLine
 10
-127.2731984624
 20
156.1094721267
 30
0.0
 11
-189.4648450086
 21
218.3011223982
 31
0.0
  0
LINE
  5
C2
330
1F
100
AcDbEntity
  8
0
  6
Continuous
 62
     7
370
    25
100
AcDbLine
 10
-127.2731984624
 20
-9.9382499745
 30
0.0
 11
-64.2731974492
 21
-9.9382499745
 31
0.0
  0
LINE
  5
C3
330
1F
100
AcDbEntity
  8
0
  6
Continuous
 62
     7
370
    25
100
AcDbLine
 10
-127.2731984624
 20
244.0617581318
 30
0.0
 11
-64.2731974492
 21
244.0617581318
 31
0.0
  0
LWPOLYLINE
  5
C4
330
1F
100
AcDbEntity
  8
0
  6
Continuous
 62
     7
370
    25
100
AcDbPolyline
 90
       32
 70
   128
 43
0.0
 10
-127.2731984624
 20
156.1094721267
 10
-127.2627564737
 20
156.084259362
 10
-127.1792503664
 20
155.8826615522
 10
-127.0124616692
 20
155.4800023744
 10
-126.7628336916
 20
154.8773547123
 10
-126.43102581
 20
154.0762980888
 10
-126.0179190555
 20
153.0789633701
 10
-125.5246086636
 20
151.8880029628
 10
-124.9524022112
 20
150.5065759132
 10
-124.3028196165
 20
148.9383479068
 10
-123.5775801012
 20
147.1874614666
 10
-122.7786096403
 20
145.2585806558
 10
-121.9080241987
 20
143.1568016718
 10
-120.9681334564
 20
140.8877124498
 10
-119.9614314953
 20
138.4573181579
 10
-118.8905874858
 20
135.8720709989
 10
-117.7584382364
 20
133.1388106058
 10
-116.5679900566
 20
130.2648236463
 10
-115.3223964045
 20
127.2576948116
 10
-114.0249634752
 20
124.125411124
 10
-112.6791278491
 20
120.8762725303
 10
-111.2884620795
 20
117.5189068029
 10
-109.8566523412
 20
114.0622173855
 10
-108.3874956364
 20
110.5153610418
 10
-106.8848886186
 20
106.887747855
 10
-105.3528154859
 20
103.188989074
 10
-103.7953386674
 20
99.4289120147
 10
-102.2165881129
 20
95.6174706528
 10
-100.6207510488
 20
91.7647754262
 10
-99.0120594049
 20
87.8810559819
 10
-97.3947787549
 20
83.9765941212
 10
-95.7731979558
 20
80.0617536018
  0
LWPOLYLINE
  5
C5
330
1F
100
AcDbEntity
  8
0
  6
Continuous
 62
     7
370
    25
100
AcDbPolyline
 90
       21
 70
   128
 43
0.0
 10
-95.7731979558
 20
80.0617536018
 10
-98.3078947881
 20
79.0118475864
 10
-100.8261533113
 20
77.9687439511
 10
-103.3116413871
 20
76.9392227242
 10
-105.7482401499
 20
75.9299521754
 10
-108.1201464528
 20
74.9474739144
 10
-110.4119776407
 20
73.9981656382
 10
-112.6088707367
 20
73.088188977
 10
-114.6965792993
 20
72.2234298895
 10
-116.6615618983
 20
71.4095061133
 10
-118.4910743156
 20
70.6517001102
 10
-120.1732533643
 20
69.9549143622
 10
-121.6971895316
 20
69.3236788223
 10
-123.0529977599
 20
68.7620838592
 10
-124.2318863639
 20
68.2737728069
 10
-125.2262091854
 20
67.8619121621
 10
-126.0295177469
 20
67.5291692326
 10
-126.6366040924
 20
67.2777121375
 10
-127.043526865
 20
67.1091576526
 10
-127.2476504216
 20
67.0246010134
 10
-127.2731984624
 20
67.014021189
  0
LWPOLYLINE
  5
C6
330
1F
100
AcDbEntity
  8
0
  6
Continuous
 62
     7
370
    25
100
AcDbPolyline
 90
       40
 70
   128
 43
0.0
 10
-234.0125667522
 20
173.7534006546
 10
-233.9364963243
 20
173.8294710825
 10
-233.7087916801
 20
174.0571906278
 10
-233.3310025403
 20
174.4349797676
 10
-232.8057217071
 20
174.9602606008
 10
-232.136525459
 20
175.6294568489
 10
-231.3279884526
 20
176.4379789541
 10
-230.3856390187
 20
177.380328388
 10
-229.315914459
 20
178.4500529478
 10
-228.1261312434
 20
179.6398510645
 10
-226.8243807027
 20
180.941586704
 10
-225.4196035335
 20
182.3463787744
 10
-223.9213513801
 20
183.8446160267
 10
-222.3398911426
 20
185.4260762642
 10
-220.6860187122
 20
187.0799561451
 10
-218.9710217187
 20
188.794945688
 10
-217.2066199252
 20
190.5593474815
 10
-215.4048683712
 20
192.3611064861
 10
-213.5780679652
 20
194.1878994415
 10
-211.7387133309
 20
196.0272689769
 10
-209.8993512461
 20
197.8666236112
 10
-208.0725508401
 20
199.6934165666
 10
-206.2707992861
 20
201.4951755712
 10
-204.5063974926
 20
203.2595773647
 10
-202.7914004991
 20
204.9745669077
 10
-201.1375206182
 20
206.6284467886
 10
-199.5560603807
 20
208.2099070261
 10
-198.0578231284
 20
209.7081591795
 10
-196.653031058
 20
211.1129363487
 10
-195.3512954185
 20
212.4146719883
 10
-194.1615047524
 20
213.604470105
 10
-193.0917801926
 20
214.6741946647
 10
-192.1494307587
 20
215.6165440986
 10
-191.3409012029
 20
216.4250662039
 10
-190.6717049548
 20
217.0942624519
 10
-190.1464241216
 20
217.6195581863
 10
-189.7686349818
 20
217.9973324249
 10
-189.5409228871
 20
218.2250519703
 10
-189.4648450086
 20
218.3011223982
 10
-189.4648450086
 20
218.3011223982
  0
LINE
  5
C7
330
1F
100
AcDbEntity
  8
0
  6
Continuous
 62
     7
370
    25
100
AcDbLine
 10
269.2397440612
 20
-109.795245593
 30
0.0
 11
347.0195494981
 21
-244.5138154544
 31
0.0
  0
LINE
  5
C8
330
1F
100
AcDbEntity
  8
0
  6
Continuous
 62
     7
370
    25
100
AcDbLine
 10
383.8450725762
 20
-182.2974922942
 30
0.0
 11
323.7993504891
 21
-78.2952542093
 31
0.0
  0
LINE
  5
C9
330
1F
100
AcDbEntity
  8
0
  6
Continuous
 62
     7
370
    25
100
AcDbLine
 10
410.0195483462
 20
-309.5620896045
 30
0.0
 11
410.0195483462
 21
-102.1607167664
 31
0.0
  0
LINE
  5
CA
330
1F
100
AcDbEntity
  8
0
  6
Continuous
 62
     7
370
    25
100
AcDbLine
 10
347.0195508152
 20
-243.6069362044
 30
0.0
 11
347.0195508152
 21
-309.5620896045
 31
0.0
  0
LINE
  5
CB
330
1F
100
AcDbEntity
  8
0
  6
Continuous
 62
     7
370
    25
100
AcDbLine
 10
347.0195508152
 20
-102.1607167664
 30
0.0
 11
347.0195508152
 21
-118.5138202855
 31
0.0
  0
ELLIPSE
  5
CC
330
1F
100
AcDbEntity
  8
0
  6
Continuous
 62
     7
370
    25
100
AcDbEllipse
 10
378.5195495807
 20
-236.0734165348
 30
0.0
 11
31.38643494983341
 21
8.409969919475344
 31
0.0
210
0.0
220
0.0
230
1.0
 40
0.3177652438
 41
0.7004580896382446
 42
3.056652579830585
  0
ELLIPSE
  5
CD
330
1F
100
AcDbEntity
  8
0
  6
Continuous
 62
     7
370
    25
100
AcDbEllipse
 10
378.5195495807
 20
-236.0734165348
 30
0.0
 11
-20.30389155626057
 21
75.77515468673636
 31
0.0
210
0.0
220
0.0
230
1.0
 40
0.3178248929
 41
4.797329054143887
 42
5.412847070022957
  0
LWPOLYLINE
  5
CE
330
1F
100
AcDbEntity
  8
0
  6
Continuous
 62
     7
370
    25
100
AcDbPolyline
 90
       77
 70
   128
 43
0.0
 10
312.2695506091
 20
-84.9500168511
 10
310.3763943518
 20
-86.0429167073
 10
308.3885812118
 20
-87.1904931081
 10
306.3196912001
 20
-88.3848758547
 10
304.1838601392
 20
-89.6179467535
 10
301.9956695215
 20
-90.8812511112
 10
299.7700742342
 20
-92.1661611308
 10
297.5222708506
 20
-93.4639154532
 10
295.2676199211
 20
-94.7656396823
 10
293.0215248019
 20
-96.0624467638
 10
290.7993216775
 20
-97.3454700617
 10
288.6161899987
 20
-98.6059394023
 10
286.4870523841
 20
-99.8352753682
 10
284.4264442281
 20
-101.0250489959
 10
282.4484425781
 20
-102.1671445129
 10
280.5665620845
 20
-103.253752494
 10
278.7936575361
 20
-104.2774626407
 10
277.1418382492
 20
-105.2312827939
 10
275.6223864085
 20
-106.1086800035
 10
274.2456833095
 20
-106.9036717855
 10
273.0211408703
 20
-107.6108413384
 10
271.9571068012
 20
-108.2253314646
 10
271.0608646043
 20
-108.7429662481
 10
270.3385282069
 20
-109.1601963106
 10
269.7950366929
 20
-109.4741687798
 10
269.4341042531
 20
-109.6827561948
 10
269.2581898929
 20
-109.7845192532
 10
269.268489529
 20
-109.7787600506
 10
269.4649557462
 20
-109.665541099
 10
269.8462161378
 20
-109.4456047348
 10
270.409698429
 20
-109.1204833838
 10
271.151530378
 20
-108.6923748678
 10
272.0666504117
 20
-108.164212367
 10
273.1488069672
 20
-107.5395918105
 10
274.390611175
 20
-106.8228023029
 10
275.7835829575
 20
-106.0187265144
 10
277.3181984441
 20
-105.1328619838
 10
278.9839833197
 20
-104.171267228
 10
280.7695544778
 20
-103.1404890339
 10
282.6627054668
 20
-102.0475861363
 10
284.6505133384
 20
-100.9000066942
 10
286.7194033502
 20
-99.7056117801
 10
288.8552344111
 20
-98.4725530488
 10
291.0434250288
 20
-97.2092486911
 10
293.2690255844
 20
-95.9243417128
 10
295.516828968
 20
-94.6265873904
 10
297.7714798975
 20
-93.3248631613
 10
300.0175697483
 20
-92.0280530385
 10
302.2397834095
 20
-90.7450358233
 10
304.4229045516
 20
-89.4845482325
 10
306.5520527029
 20
-88.2552305168
 10
308.6126608588
 20
-87.0654568891
 10
310.5906572405
 20
-85.9233583307
 10
312.4725377341
 20
-84.8367503496
 10
314.2454422825
 20
-83.8130402029
 10
315.8972615694
 20
-82.8592200498
 10
317.4167134101
 20
-81.9818228402
 10
318.7934112408
 20
-81.1868158494
 10
320.0179589483
 20
-80.4796615052
 10
321.0819930174
 20
-79.8651713791
 10
321.9782352143
 20
-79.3475365955
 10
322.7005716117
 20
-78.9303065331
 10
323.2440631258
 20
-78.6163340639
 10
323.6050008339
 20
-78.4077496902
 10
323.7809151941
 20
-78.3059866318
 10
323.7706050213
 20
-78.3117275842
 10
323.5741493408
 20
-78.424964786
 10
323.1928784124
 20
-78.6448950675
 10
322.6294013896
 20
-78.9700194598
 10
321.8875694406
 20
-79.3981279759
 10
320.9724494069
 20
-79.9262904766
 10
319.8902875831
 20
-80.5509079918
 10
318.6484833753
 20
-81.2676974994
 10
317.2555115927
 20
-82.0717611205
 10
315.7208961061
 20
-82.9576378185
 10
314.0551164989
 20
-83.9192356156
 10
312.2695506091
 20
-84.9500168511
  0
LWPOLYLINE
  5
CF
330
1F
100
AcDbEntity
  8
0
  6
Continuous
 62
     7
370
    25
100
AcDbPolyline
 90
       72
 70
   128
 43
0.0
 10
310.3695496048
 20
-86.0472206498
 10
308.5842654075
 20
-87.0778473665
 10
306.7045544887
 20
-88.1630118161
 10
304.745133672
 20
-89.294217918
 10
302.7213361784
 20
-90.4625953466
 10
300.6490013204
 20
-91.6590179637
 10
298.5443497077
 20
-92.8741211125
 10
296.4238502214
 20
-94.0983784181
 10
294.3041034515
 20
-95.322223835
 10
292.2016869389
 20
-96.5360801626
 10
290.1330735159
 20
-97.730442688
 10
288.1144330843
 20
-98.8959571367
 10
286.1615825661
 20
-100.0235094007
 10
284.2897922915
 20
-101.1042764929
 10
282.5137188269
 20
-102.1297957478
 10
280.8472561443
 20
-103.0920446733
 10
279.3034539619
 20
-103.983494184
 10
277.8943899857
 20
-104.7971519545
 10
276.6310961535
 20
-105.5266719282
 10
275.5234506329
 20
-106.1663254279
 10
274.5801304062
 20
-106.7111258757
 10
273.8085177575
 20
-107.1567854573
 10
273.2146489057
 20
-107.4998421264
 10
272.8031718578
 20
-107.7375926931
 10
272.5773134821
 20
-107.8681787655
 10
272.5388215556
 20
-107.8905776379
 10
272.6880266677
 20
-107.8046334743
 10
273.0237342186
 20
-107.6109980123
 10
273.5433324209
 20
-107.3111898828
 10
274.2427567377
 20
-106.9075543223
 10
275.1165188593
 20
-106.4032586226
 10
276.1577916546
 20
-105.8022430889
 10
277.3584183914
 20
-105.109203566
 10
278.7090092128
 20
-104.3295844127
 10
280.1989953028
 20
-103.4694742368
 10
281.8167134263
 20
-102.5356179314
 10
283.5494979616
 20
-101.5353027115
 10
285.3837876662
 20
-100.4763573157
 10
287.3052310443
 20
-99.367091179
 10
289.2987931132
 20
-98.2161719614
 10
291.3488685083
 20
-97.0326210879
 10
293.4394081708
 20
-95.8256797732
 10
295.5540578062
 20
-94.604802087
 10
297.6762543616
 20
-93.3795505897
 10
299.7894038326
 20
-92.1595058384
 10
301.8769662153
 20
-90.9542173447
 10
303.9225898496
 20
-89.7731138428
 10
305.9102865918
 20
-88.625462982
 10
307.8244765961
 20
-87.5202238065
 10
309.6501964141
 20
-86.4660482667
 10
311.3731503616
 20
-85.4711846459
 10
312.9798527642
 20
-84.5434380109
 10
314.4577320072
 20
-83.6900432116
 10
315.7952253662
 20
-82.9177013791
 10
316.981854081
 20
-82.2324392357
 10
318.0083405765
 20
-81.6396387437
 10
318.8666453413
 20
-81.1439184688
 10
319.5500591241
 20
-80.7491715935
 10
320.0532240067
 20
-80.4584868216
 10
320.3722058442
 20
-80.2741369595
 10
320.5045074358
 20
-80.19756522
 10
320.449098818
 20
-80.2293738018
 10
320.2064027763
 20
-80.3693018292
 10
319.7783330411
 20
-80.6162641181
 10
319.1682231646
 20
-80.9683313989
 10
318.3808601068
 20
-81.4227474085
 10
317.4224025761
 20
-81.9759395288
 10
316.3003527114
 20
-82.6235959599
 10
315.0234922038
 20
-83.3606478372
 10
313.6018124906
 20
-84.1813095246
 10
312.0464426446
 20
-85.0791749905
 10
310.3695496048
 20
-86.0472206498
  0
LWPOLYLINE
  5
D0
330
1F
100
AcDbEntity
  8
0
  6
Continuous
 62
     7
370
    25
100
AcDbPolyline
 90
       77
 70
   128
 43
0.0
 10
356.2456856151
 20
-322.4205175725
 10
354.4824022373
 20
-321.3147583077
 10
352.8833147494
 20
-320.1287176671
 10
351.4593505453
 20
-318.87049526
 10
350.2202331991
 20
-317.5486879579
 10
349.1744302761
 20
-316.1723232693
 10
348.3290836915
 20
-314.7508039303
 10
347.6899688807
 20
-313.293840234
 10
347.2614513351
 20
-311.8113854023
 10
347.0464589438
 20
-310.3135663942
 10
347.0464589438
 20
-308.8106128148
 10
347.2614513351
 20
-307.3127938067
 10
347.6899688807
 20
-305.8303389749
 10
348.3290836915
 20
-304.3733752787
 10
349.1744302761
 20
-302.9518559397
 10
350.2202331991
 20
-301.5754912511
 10
351.4593505453
 20
-300.253683949
 10
352.8833147494
 20
-298.9954615419
 10
354.4824022373
 20
-297.8094209012
 10
356.2456856151
 20
-296.7036616365
 10
358.1611243843
 20
-295.6857398095
 10
360.2156296437
 20
-294.7626062523
 10
362.3951709379
 20
-293.9405692147
 10
364.6848564352
 20
-293.2252419969
 10
367.0690483377
 20
-292.6215128202
 10
369.5314588641
 20
-292.1335046245
 10
372.0552674707
 20
-291.7645514976
 10
374.6232328036
 20
-291.5171735842
 10
377.2178125543
 20
-291.3930611185
 10
379.8212866071
 20
-291.3930611185
 10
382.4158663577
 20
-291.5171735842
 10
384.9838316907
 20
-291.7645514976
 10
387.5076402972
 20
-292.1335046245
 10
389.9700508237
 20
-292.6215128202
 10
392.3542427262
 20
-293.2252419969
 10
394.6439282235
 20
-293.9405692147
 10
396.8234695176
 20
-294.7626062523
 10
398.877974777
 20
-295.6857398095
 10
400.7934135463
 20
-296.7036616365
 10
402.5566969241
 20
-297.8094209012
 10
404.1557844119
 20
-298.9954615419
 10
405.5797486161
 20
-300.253683949
 10
406.8188659623
 20
-301.5754912511
 10
407.8646688853
 20
-302.9518559397
 10
408.7100154699
 20
-304.3733752787
 10
409.3491302807
 20
-305.8303389749
 10
409.7776478262
 20
-307.3127938067
 10
409.9926402176
 20
-308.8106128148
 10
409.9926402176
 20
-310.3135663942
 10
409.7776478262
 20
-311.8113854023
 10
409.3491302807
 20
-313.293840234
 10
408.7100154699
 20
-314.7508039303
 10
407.8646688853
 20
-316.1723232693
 10
406.8188659623
 20
-317.5486879579
 10
405.5797486161
 20
-318.87049526
 10
404.1557844119
 20
-320.1287176671
 10
402.5566969241
 20
-321.3147583077
 10
400.7934135463
 20
-322.4205175725
 10
398.877974777
 20
-323.4384393994
 10
396.8234695176
 20
-324.3615729567
 10
394.6439282235
 20
-325.1836099942
 10
392.3542427262
 20
-325.898937212
 10
389.9700508237
 20
-326.5026663887
 10
387.5076402972
 20
-326.9906745844
 10
384.9838316907
 20
-327.3596277113
 10
382.4158663577
 20
-327.6070056248
 10
379.8212866071
 20
-327.7311180905
 10
377.2178125543
 20
-327.7311180905
 10
374.6232328036
 20
-327.6070056248
 10
372.0552674707
 20
-327.3596277113
 10
369.5314588641
 20
-326.9906745844
 10
367.0690483377
 20
-326.5026663887
 10
364.6848564352
 20
-325.898937212
 10
362.3951709379
 20
-325.1836099942
 10
360.2156296437
 20
-324.3615729567
 10
358.1611243843
 20
-323.4384393994
 10
356.2456856151
 20
-322.4205175725
  0
LWPOLYLINE
  5
D1
330
1F
100
AcDbEntity
  8
0
  6
Continuous
 62
     7
370
    25
100
AcDbPolyline
 90
       40
 70
   128
 43
0.0
 10
347.0195508152
 20
-102.1607167664
 10
347.0464589438
 20
-101.4092399767
 10
347.2614513351
 20
-99.9114209686
 10
347.6899688807
 20
-98.4289661369
 10
348.3290836915
 20
-96.9720024407
 10
349.1744302761
 20
-95.5504831016
 10
350.2202331991
 20
-94.174118413
 10
351.4593505453
 20
-92.8523111109
 10
352.8833147494
 20
-91.5940887038
 10
354.4824022373
 20
-90.4080480632
 10
356.2456856151
 20
-89.3022887984
 10
358.1611243843
 20
-88.2843669715
 10
360.2156296437
 20
-87.3612334142
 10
362.3951709379
 20
-86.5391963767
 10
364.6848564352
 20
-85.8238691589
 10
367.0690483377
 20
-85.2201399822
 10
369.5314588641
 20
-84.7321317865
 10
372.0552674707
 20
-84.3631786596
 10
374.6232328036
 20
-84.1158007461
 10
377.2178125543
 20
-83.9916882804
 10
379.8212866071
 20
-83.9916882804
 10
382.4158663577
 20
-84.1158007461
 10
384.9838316907
 20
-84.3631786596
 10
387.5076402972
 20
-84.7321317865
 10
389.9700508237
 20
-85.2201399822
 10
392.3542427262
 20
-85.8238691589
 10
394.6439282235
 20
-86.5391963767
 10
396.8234695176
 20
-87.3612334142
 10
398.877974777
 20
-88.2843669715
 10
400.7934135463
 20
-89.3022887984
 10
402.5566969241
 20
-90.4080480632
 10
404.1557844119
 20
-91.5940887038
 10
405.5797486161
 20
-92.8523111109
 10
406.8188659623
 20
-94.174118413
 10
407.8646688853
 20
-95.5504831016
 10
408.7100154699
 20
-96.9720024407
 10
409.3491302807
 20
-98.4289661369
 10
409.7776478262
 20
-99.9114209686
 10
409.9926402176
 20
-101.4092399767
 10
410.0195483462
 20
-102.1607167664
  0
LWPOLYLINE
  5
D2
330
1F
100
AcDbEntity
  8
0
  6
Continuous
 62
     7
370
    25
100
AcDbPolyline
 90
       72
 70
   128
 43
0.0
 10
358.9326920874
 20
-320.8693417537
 10
357.2782501471
 20
-319.8257583802
 10
355.7900505238
 20
-318.7018478203
 10
354.4797399064
 20
-317.5064062495
 10
353.3575728209
 20
-316.248790213
 10
352.4323329337
 20
-314.9388407825
 10
351.7112609417
 20
-313.5868115137
 10
351.2000005715
 20
-312.203282528
 10
350.9025518223
 20
-310.7990833382
 10
350.8212439661
 20
-309.385202748
 10
350.9567131568
 20
-307.972707496
 10
351.3078984793
 20
-306.5726494942
 10
351.8720524859
 20
-305.1959897939
 10
352.6447583185
 20
-303.8534989817
 10
353.6199698801
 20
-302.5556868475
 10
354.790054969
 20
-301.3127090534
 10
356.1458542189
 20
-300.1342935705
 10
357.6767592188
 20
-299.0296636472
 10
359.3707871338
 20
-298.0074643177
 10
361.2146803518
 20
-297.0756957533
 10
363.1940064995
 20
-296.2416494416
 10
365.2932764865
 20
-295.5118537271
 10
367.4960597919
 20
-294.8920209441
 10
369.7851176963
 20
-294.3870009168
 10
372.1425338376
 20
-294.0007466492
 10
374.5498577745
 20
-293.7362801099
 10
376.9882518413
 20
-293.5956728433
 10
379.438628784
 20
-293.5800243
 10
381.8818131036
 20
-293.6894568948
 10
384.2986833017
 20
-293.9231144855
 10
386.6703233459
 20
-294.2791692164
 10
388.9781734763
 20
-294.7548325432
 10
391.2041698171
 20
-295.3463826049
 10
393.3308935368
 20
-296.0491895055
 10
395.3416961363
 20
-296.8577541859
 10
397.2208445757
 20
-297.7657465839
 10
398.953629111
 20
-298.7660618038
 10
400.5264884997
 20
-299.850871107
 10
401.9271153682
 20
-301.0116827391
 10
403.1445445389
 20
-302.2394142095
 10
404.16925033
 20
-303.5244545442
 10
404.9932126573
 20
-304.8567480659
 10
405.6099843701
 20
-306.2258667209
 10
406.0147350443
 20
-307.6210961879
 10
406.204298398
 20
-309.031516474
 10
406.177191389
 20
-310.4460889729
 10
405.9336260685
 20
-311.8537439049
 10
405.4755069474
 20
-313.2434624327
 10
404.8064224346
 20
-314.6043698034
 10
403.9316073003
 20
-315.9258148038
 10
402.8579090905
 20
-317.1974545385
 10
401.5937288574
 20
-318.4093373063
 10
400.1489617262
 20
-319.5519779695
 10
398.5349163465
 20
-320.6164348667
 10
396.764223314
 20
-321.594376366
 10
394.8507408335
 20
-322.4781490108
 10
392.8094441659
 20
-323.2608352578
 10
390.6563101773
 20
-323.9363110017
 10
388.4081900337
 20
-324.4992886529
 10
386.082675764
 20
-324.9453622351
 10
383.6979728309
 20
-325.2710414109
 10
381.272738459
 20
-325.4737763822
 10
378.8259598035
 20
-325.5519810814
 10
376.3767814119
 20
-325.5050430551
 10
373.9443735147
 20
-325.3333295472
 10
371.5477713409
 20
-325.0381852178
 10
369.2057341894
 20
-324.6219192173
 10
366.9365893539
 20
-324.0877895997
 10
364.7580984382
 20
-323.4399763303
 10
362.6873085256
 20
-322.6835501119
 10
360.7404273842
 20
-321.8244307562
 10
358.9326920874
 20
-320.8693417537
  0
ENDSEC
  0
SECTION
  2
OBJECTS
  0
DICTIONARY
  5
C
330
0
100
AcDbDictionary
281
     1
  3
ACAD_GROUP
350
D
  3
ACAD_LAYOUT
350
1A
  3
ACAD_MLINESTYLE
350
17
  3
ACAD_PLOTSETTINGS
350
19
  3
ACAD_PLOTSTYLENAME
350
E
  3
ACAD_SCALELIST
350
47
  0
DICTIONARY
  5
D
102
{ACAD_REACTORS
330
C
102
}
330
C
100
AcDbDictionary
281
     1
  0
DICTIONARY
  5
1A
102
{ACAD_REACTORS
330
C
102
}
330
C
100
AcDbDictionary
281
     1
  3
Layout1
350
1E
  3
Layout2
350
26
  3
Model
350
22
  0
DICTIONARY
  5
17
102
{ACAD_REACTORS
330
C
102
}
330
C
100
AcDbDictionary
281
     1
  3
Standard
350
18
  0
DICTIONARY
  5
19
102
{ACAD_REACTORS
330
C
102
}
330
C
100
AcDbDictionary
281
     1
  0
ACDBDICTIONARYWDFLT
  5
E
102
{ACAD_REACTORS
330
C
102
}
330
C
100
AcDbDictionary
281
     1
  3
Normal
350
F
100
AcDbDictionaryWithDefault
340
F
  0
DICTIONARY
  5
47
102
{ACAD_REACTORS
330
C
102
}
330
C
100
AcDbDictionary
281
     1
  3
A0
350
48
  3
A1
350
49
  3
A2
350
4A
  3
A3
350
4B
  3
A4
350
4C
  3
A5
350
4D
  3
A6
350
4E
  3
A7
350
4F
  3
A8
350
50
  3
A9
350
51
  3
B0
350
52
  3
B1
350
53
  3
B2
350
54
  3
B3
350
55
  3
B4
350
56
  3
B5
350
57
  3
B6
350
58
  3
B7
350
59
  3
B8
350
5A
  3
B9
350
5B
  3
C0
350
5C
  3
C1
350
5D
  3
C2
350
5E
  3
C3
350
5F
  3
C4
350
60
  3
C5
350
61
  3
C6
350
62
  3
C7
350
63
  3
C8
350
64
  3
C9
350
65
  3
D0
350
66
  3
D1
350
67
  3
D2
350
68
  0
LAYOUT
  5
1E
102
{ACAD_REACTORS
330
1A
102
}
330
1A
100
AcDbPlotSettings
  1

  2
none_device
  4

  6

 40
0.0
 41
0.0
 42
0.0
 43
0.0
 44
0.0
 45
0.0
 46
0.0
 47
0.0
 48
0.0
 49
0.0
140
0.0
141
0.0
142
1.0
143
1.0
 70
   688
 72
     1
 73
     0
 74
     5
  7

 75
    16
147
1.0
148
0.0
149
0.0
100
AcDbLayout
  1
Layout1
 70
     1
 71
     1
 10
0.0
 20
0.0
 11
420.0
 21
297.0
 12
0.0
 22
0.0
 32
0.0
 14
1.0000000000E+20
 24
1.0000000000E+20
 34
1.0000000000E+20
 15
-1.0000000000E+20
 25
-1.0000000000E+20
 35
-1.0000000000E+20
146
0.0
 13
0.0
 23
0.0
 33
0.0
 16
1.0
 26
0.0
 36
0.0
 17
0.0
 27
1.0
 37
0.0
 76
     0
330
1B
  0
LAYOUT
  5
26
102
{ACAD_REACTORS
330
1A
102
}
330
1A
100
AcDbPlotSettings
  1

  2
none_device
  4

  6

 40
0.0
 41
0.0
 42
0.0
 43
0.0
 44
0.0
 45
0.0
 46
0.0
 47
0.0
 48
0.0
 49
0.0
140
0.0
141
0.0
142
1.0
143
1.0
 70
   688
 72
     1
 73
     0
 74
     5
  7

 75
    16
147
1.0
148
0.0
149
0.0
100
AcDbLayout
  1
Layout2
 70
     1
 71
     2
 10
0.0
 20
0.0
 11
0.0
 21
0.0
 12
0.0
 22
0.0
 32
0.0
 14
0.0
 24
0.0
 34
0.0
 15
0.0
 25
0.0
 35
0.0
146
0.0
 13
0.0
 23
0.0
 33
0.0
 16
1.0
 26
0.0
 36
0.0
 17
0.0
 27
1.0
 37
0.0
 76
     0
330
23
  0
LAYOUT
  5
22
102
{ACAD_REACTORS
330
1A
102
}
330
1A
100
AcDbPlotSettings
  1

  2
none_device
  4
Letter_(8.50_x_11.00_Inches)
  6

 40
6.35
 41
6.35
 42
6.35000508
 43
6.35000508
 44
215.9
 45
279.4
 46
0.0
 47
0.0
 48
0.0
 49
0.0
140
0.0
141
0.0
142
1.0
143
1.0
 70
  1712
 72
     1
 73
     0
 74
     0
  7

 75
     0
147
1.0
148
0.0
149
0.0
100
AcDbLayout
  1
Model
 70
     1
 71
     0
 10
0.0
 20
0.0
 11
279.4
 21
215.9
 12
0.0
 22
0.0
 32
0.0
 14
0.0
 24
0.0
 34
0.0
 15
279.4
 25
215.9
 35
0.0
146
0.0
 13
0.0
 23
0.0
 33
0.0
 16
1.0
 26
0.0
 36
0.0
 17
0.0
 27
1.0
 37
0.0
 76
     0
330
1F
331
29
  0
MLINESTYLE
  5
18
102
{ACAD_REACTORS
330
17
102
}
330
17
100
AcDbMlineStyle
  2
Standard
 70
     0
  3

 62
   256
 51
90.0
 52
90.0
 71
     2
 49
0.5
 62
   256
  6
BYLAYER
 49
-0.5
 62
   256
  6
BYLAYER
  0
ACDBPLACEHOLDER
  5
F
102
{ACAD_REACTORS
330
E
102
}
330
E
  0
SCALE
  5
48
102
{ACAD_REACTORS
330
47
102
}
330
47
100
AcDbScale
 70
     0
300
1:1
140
1.0
141
1.0
290
     1
  0
SCALE
  5
49
102
{ACAD_REACTORS
330
47
102
}
330
47
100
AcDbScale
 70
     0
300
1:2
140
1.0
141
2.0
290
     0
  0
SCALE
  5
4A
102
{ACAD_REACTORS
330
47
102
}
330
47
100
AcDbScale
 70
     0
300
1:4
140
1.0
141
4.0
290
     0
  0
SCALE
  5
4B
102
{ACAD_REACTORS
330
47
102
}
330
47
100
AcDbScale
 70
     0
300
1:5
140
1.0
141
5.0
290
     0
  0
SCALE
  5
4C
102
{ACAD_REACTORS
330
47
102
}
330
47
100
AcDbScale
 70
     0
300
1:8
140
1.0
141
8.0
290
     0
  0
SCALE
  5
4D
102
{ACAD_REACTORS
330
47
102
}
330
47
100
AcDbScale
 70
     0
300
1:10
140
1.0
141
10.0
290
     0
  0
SCALE
  5
4E
102
{ACAD_REACTORS
330
47
102
}
330
47
100
AcDbScale
 70
     0
300
1:16
140
1.0
141
16.0
290
     0
  0
SCALE
  5
4F
102
{ACAD_REACTORS
330
47
102
}
330
47
100
AcDbScale
 70
     0
300
1:20
140
1.0
141
20.0
290
     0
  0
SCALE
  5
50
102
{ACAD_REACTORS
330
47
102
}
330
47
100
AcDbScale
 70
     0
300
1:30
140
1.0
141
30.0
290
     0
  0
SCALE
  5
51
102
{ACAD_REACTORS
330
47
102
}
330
47
100
AcDbScale
 70
     0
300
1:40
140
1.0
141
40.0
290
     0
  0
SCALE
  5
52
102
{ACAD_REACTORS
330
47
102
}
330
47
100
AcDbScale
 70
     0
300
1:50
140
1.0
141
50.0
290
     0
  0
SCALE
  5
53
102
{ACAD_REACTORS
330
47
102
}
330
47
100
AcDbScale
 70
     0
300
1:100
140
1.0
141
100.0
290
     0
  0
SCALE
  5
54
102
{ACAD_REACTORS
330
47
102
}
330
47
100
AcDbScale
 70
     0
300
2:1
140
2.0
141
1.0
290
     0
  0
SCALE
  5
55
102
{ACAD_REACTORS
330
47
102
}
330
47
100
AcDbScale
 70
     0
300
4:1
140
4.0
141
1.0
290
     0
  0
SCALE
  5
56
102
{ACAD_REACTORS
330
47
102
}
330
47
100
AcDbScale
 70
     0
300
8:1
140
8.0
141
1.0
290
     0
  0
SCALE
  5
57
102
{ACAD_REACTORS
330
47
102
}
330
47
100
AcDbScale
 70
     0
300
10:1
140
10.0
141
1.0
290
     0
  0
SCALE
  5
58
102
{ACAD_REACTORS
330
47
102
}
330
47
100
AcDbScale
 70
     0
300
100:1
140
100.0
141
1.0
290
     0
  0
SCALE
  5
59
102
{ACAD_REACTORS
330
47
102
}
330
47
100
AcDbScale
 70
     0
300
1/128" = 1'-0"
140
0.0078125
141
12.0
290
     0
  0
SCALE
  5
5A
102
{ACAD_REACTORS
330
47
102
}
330
47
100
AcDbScale
 70
     0
300
1/64" = 1'-0"
140
0.015625
141
12.0
290
     0
  0
SCALE
  5
5B
102
{ACAD_REACTORS
330
47
102
}
330
47
100
AcDbScale
 70
     0
300
1/32" = 1'-0"
140
0.03125
141
12.0
290
     0
  0
SCALE
  5
5C
102
{ACAD_REACTORS
330
47
102
}
330
47
100
AcDbScale
 70
     0
300
1/16" = 1'-0"
140
0.0625
141
12.0
290
     0
  0
SCALE
  5
5D
102
{ACAD_REACTORS
330
47
102
}
330
47
100
AcDbScale
 70
     0
300
3/32" = 1'-0"
140
0.09375
141
12.0
290
     0
  0
SCALE
  5
5E
102
{ACAD_REACTORS
330
47
102
}
330
47
100
AcDbScale
 70
     0
300
1/8" = 1'-0"
140
0.125
141
12.0
290
     0
  0
SCALE
  5
5F
102
{ACAD_REACTORS
330
47
102
}
330
47
100
AcDbScale
 70
     0
300
3/16" = 1'-0"
140
0.1875
141
12.0
290
     0
  0
SCALE
  5
60
102
{ACAD_REACTORS
330
47
102
}
330
47
100
AcDbScale
 70
     0
300
1/4" = 1'-0"
140
0.25
141
12.0
290
     0
  0
SCALE
  5
61
102
{ACAD_REACTORS
330
47
102
}
330
47
100
AcDbScale
 70
     0
300
3/8" = 1'-0"
140
0.375
141
12.0
290
     0
  0
SCALE
  5
62
102
{ACAD_REACTORS
330
47
102
}
330
47
100
AcDbScale
 70
     0
300
1/2" = 1'-0"
140
0.5
141
12.0
290
     0
  0
SCALE
  5
63
102
{ACAD_REACTORS
330
47
102
}
330
47
100
AcDbScale
 70
     0
300
3/4" = 1'-0"
140
0.75
141
12.0
290
     0
  0
SCALE
  5
64
102
{ACAD_REACTORS
330
47
102
}
330
47
100
AcDbScale
 70
     0
300
1" = 1'-0"
140
1.0
141
12.0
290
     0
  0
SCALE
  5
65
102
{ACAD_REACTORS
330
47
102
}
330
47
100
AcDbScale
 70
     0
300
1-1/2" = 1'-0"
140
1.5
141
12.0
290
     0
  0
SCALE
  5
66
102
{ACAD_REACTORS
330
47
102
}
330
47
100
AcDbScale
 70
     0
300
3" = 1'-0"
140
3.0
141
12.0
290
     0
  0
SCALE
  5
67
102
{ACAD_REACTORS
330
47
102
}
330
47
100
AcDbScale
 70
     0
300
6" = 1'-0"
140
6.0
141
12.0
290
     0
  0
SCALE
  5
68
102
{ACAD_REACTORS
330
47
102
}
330
47
100
AcDbScale
 70
     0
300
1'-0" = 1'-0"
140
12.0
141
12.0
290
     0
  0
ENDSEC
  0
EOF
